Главная » Faces » Табулатуры » I Know Im Losing You

ВОЙТИ НА САЙТ

Логин:
Пароль:
Регистрация | Забыли пароль?
Русские: А | Б | В | Г | Д | Е | Ж | З | К | Л | М | Н | О | П | Р | С | Т | У | Ф | Х | Ц | Ч | Ш | Э | Ю | Я | 0-9
Зарубежные: A | B | C | D | E | F | G | H | I | J | K | L | M | N | O | P | Q | R | S | T | U | V | W | X | Y | Z | 0-9
Исполнитель: Композиция: где:

Faces - I Know Im Losing You, Табулатура


			----------------------------------------------------------------------------
                  (I Know) I'm Losing You - The Faces
----------------------------------------------------------------------------

Tabbed by: GrateTheHouse

Email: frogmangod@hotmail.com

Tuning: Standard

Intro:

e|----------------10---10-10---10-10---------10-10---5---7-----------------|
B|----------------10---10-10---10-10---------10-10---5---7-----------------|
G|---------10-----10---10-10---10-10h12p10---10-10---5---7-----------------|
D|12-12-12----h12----------------------------------------------------------|
A|-------------------------------------------------------------------------|
E|-------------------------------------------------------------------------|

Verse:

e|-------------------------------------------------------------------------|
B|-------------------------------------------------------------------------|
G|----------7---7-------------10--10-------------12---12-------------10--10|
D|----------7---7-------------10--10-------------12---12-------------10--10|
A|0h2h3/5---5---5---0h2h3/8---8---8---0h2h3/10---10---10---0h2h3/8---8---8-|
E|-------------------------------------------------------------------------|

Once the guitar comes back:

e|-------------------------------------------------------------------------|
B|-------------------------------------------------------------------------|
G|----7---7-----7---------10----10------10-----------12----12-------12-----|
D|--7---7-----7---7----10----10------10----10-----12----12-------12----12--|
A|5---------5--------8-------------8-----------10-------------10-----------|
E|-------------------------------------------------------------------------|

e|-------------------------------------------------------------------------|
B|-------------------------------------------------------------------------|
G|-----10----10------10----------------------------------------------------|
D|--10----10------10----10-------------------------------------------------|
A|8-------------8----------------------------------------------------------|
E|-------------------------------------------------------------------------|

Here on in play some D F G F power chords. Solo in D. Then just grove around the 
riff pre and post drum solo.

| /  slide up
| \  slide down
| h  hammer-on
| p  pull-off
| ~  vibrato
| +  harmonic
| x  Mute note

============================================================================